Dani California...

Publicado por Gary en el blog Wollt ihr das Bett in Flamen sehen. Vistas: 15

El solo es una obra maestra...¡sólo mírenlo! (obviamente hay maneras más fáciles, pero ésta es más cool :))

(3:48 empieza el solo, para los que no quieran oír la canción y si quieran oír el solo...no están obligados -o-)

E|-----5---------------------------------------------|
B|-----6---------------------------------------------|
G|---5---7~-----------------------------------------|
D|-7--------7\5p3—5p3-5p3-5p3------------------|
A|-----------------------------------5-----------/5--|
E|--------------------------------------/5--3--1-----|

E|-----5--------------------------------------------------|
B|-----6---------------------------------------13-15~/-|
G|---5---7~--2h5p2-5p2-5p2-5p2-5/7---14----------|
D|-7-----------------------------------------------------|
A|--------------------------------------------------------|
E|---------------------------------------------------------|

E|-----5--------------------------------------------|
B|-----6--------------------------------------------|
G|---5---7~----------------------------------------|
D|-7--------7\5p3—5p3-5p3-5p3-----------------|
A|-----------------------------------5-----------/5--|
E|-------------------------------------/5--3--1-----|

E|-----5-------------------------------------------------|
B|-----6---------------------------------------13-15~/-|
G|---5---7~--2h5p2-5p2-5p2-5p2-5/7---14----------|
D|-7-----------------------------------------------------|
A|--------------------------------------------------------|
E|--------------------------------------------------------|

E|-----------------------------------------------------------------------|
B|------13--15-13----15-13----15-13----15-13----15-13----15-13-|
G|---14---14-------14-------14-------14--------14---------14-------|
D|-----------------------------------------------------------------------|
A|-----------------------------------------------------------------------|
E|-----------------------------------------------------------------------|

E|-----5--------------------------------------------------|
B|-----6--------------------------------------------------|
G|---5---7~--2h5p2-5p2-5p2--------------5-----------|
D|-7----------------------------5p3---3-5/7----5p3----|
A|------------------------------------5----------------5--|
E|---------------------------------------------------------|

E|-----5---------------------------------------------------|
B|-----6----------------------------------------13-b15~-|
G|---5---7~--2h5p2-5p2-5p2-5p2-5/7---14-----------|
D|-7------------------------------------------------------|
A|--------------------------------------------------------|
E|--------------------------------------------------------|

E|-----5---------------------------------------------|
B|-----6---------------------------------------------|
G|---5---7~-----------------------------------------|
D|-7--------7\5p3—5p3-5p3-5p3------------------|
A|-----------------------------------5-----------/5--|
E|--------------------------------------/5--3--1-----|

e|--------------------------------------------------------------------|
B|------10h13p10-----10h13p10------10h13p10-----10h13p10-|
G|-b12------------b12------------b12-------------b12-------------|
D|--------------------------------------------------------------------|
A|--------------------------------------------------------------------|
E|--------------------------------------------------------------------|

e|-13h15-15-13h15-15-13h15-15-13h15-15-|
B|------------------------------------------------|
G|------------------------------------------------|
D|------------------------------------------------|
A|------------------------------------------------|
E|------------------------------------------------|

e|---------13-------------------------------------------------------------|
B|-13h15----15-13-----10h13p10-----10h13p10----------------------|
G|-------------------b12------------b12-------------b12~~p10--------|
D|-----------------------------------------------------------------12----|
A|------------------------------------------------------------------------|
E|------------------------------------------------------------------------|
  • Leascuad
  • Leascuad
  • Menchi
  • Rubén1926
  • Nyggaventureroh
  • Nyggaventureroh
  • Gary
  • LauriE
  • Nyggaventureroh
  • Nyggaventureroh
Necesitas tener sesión iniciada para dejar un comentario